Small chords guide

  • Check other available guides for this song:
D         Ddim             G
I like to sit here in the sunshine
Em                           C        G
The trees in the fields are green sublime
    C          G 
Suspended in time
    Am            C          G
And don't it make you feel small?


D         Ddim             G
I like to sit here by the fire's light
Em                           C        G
The trees in the fields lie bare to the night
    C          G 
The stars burn bright
    Am            C          G
And don't it make you feel small?


C    Am           F             C
Everyone needs a place they can hide
      Am          F           C
Hide away find a space to be alone
C    Am           F             C
Everyone needs a place they can hide
     Am            F            C
Everyone needs to find peace sublime


D             Ddim         G
I like to sit here in the Autumn time
Em                           C             G
The trees in the fields they rustle in the wind
      C                   G
The church bells gently chime
 C              G
Gentle on your mind
   C          G
Suspended in time
     Am        C            G
And don't it make you feel small?

C    Am           F             C
Everyone needs a place they can hide
     Am           F             C
Everyone need to find peace sublime

Am--F--C
     Oh peace of mind

-------------------------------------------------|------------------------------
-13b15--r13--13b15--r13--10-13-10h13p10--10------|------------------------------
---------------------------------------12--12-10-|--12b14r12p10-12--------------
-------------------------------------------------|----------------10------------
-------------------------------------------------|------------------------------
-------------------------------------------------|------------------------------


-15b17--r15~~--12-13-15-12-13-15-15b17~~--|-15-13-12-13-121312--12--------------
------------------------------------------|-------------------15--15-13~~-------
------------------------------------------|-------------------------------------
------------------------------------------|-------------------------------------
------------------------------------------|-------------------------------------
------------------------------------------|-------------------------------------

-20~~---20---20--------------------------|--20b22-22-22-22-22-20-19-20~~--|------
------22---22--222022-20b22c-20b22r20~~--|--------------------------------|------
-----------------------------------------|--------------------------------|------
-----------------------------------------|--------------------------------|------
-----------------------------------------|--------------------------------|------
-----------------------------------------|--------------------------------|------


-22b24-24-24-24r22-20-19-20-|--20b22--17-20-17-20p17--17-----------------------------------------------
----------------------------|-----------------------20--2017-2017--17----------------------------------
----------------------------|------------------------------------20--201917--1719-19b21r19-1917--17~~--
----------------------------|----------------------------------------------19------------------19------
----------------------------|--------------------------------------------------------------------------
----------------------------|--------------------------------------------------------------------------

Am F C (in the 2nd string let sound the notes: C-B-C releasing your first finger trough every note from now on)

Am                F             C
Everyone needs a place they can hide
Am                F             C
Hide away find a space to be alone
Am                F             C
Everyone needs a place they can hide
Am                F             C
Hide away find a space to be alone
Am                F             C
Everyone needs a place they can hide
Am                F             C
Hide away find a space to be alone
Am                F             C
Everyone needs a place they can hide
Am                F             C
Everyone needs to find, peace sublime
Am--F--C
     Oh, peace of mind 
Miguel Sobrevia 2008
Last update: 2008-10-20