Still Burnin' tab guide

  • Check other available guides for this song:
    • current
    • chords
    • bass
    • drums
    • voice
    • sheet
W/ bottleneck & Wah wah

[02:16]
|----13~~----13~~----13~~--13\10------------------------------------------------------------------------
|/13-----/13-----/13----------------/13\10\6~~----666\4/6\4~~/6\4---------------------------------------
|---------------------------------------------------------------------------4\1~~-----------------------
|-------------------------------------------------------------------------------------------------------
|-------------------------------------------------------------------------------------------------------
|----------------------------------------------------------------------------------/44444-\1--/44444\1--


----4~~-----4~~-/8\4\3p0--------------------------------------------------------------------------------
/4------/4------------------4p0-------------------------------------------------------------------------
---------------------------------3\1--------------------------------------------------------------------
--------------------------------------------------------------------------------------------------------
--------------------------------------------------------------------------------------------------------
---------------------------------------/444444----------------------------------------------------------

      (90ş)                  (45ş)               (45ş)             (90ş)
--------------------------------------------------------------------------------------------------------
-----9----9-------10---10------12----12---/16-16-16--16--16--16-\\\-------------------------------------
--/9---9------/11---11----/13----13------/16--16-16--16---16--16\\\-------------------------------------
--------------------------------------------------------------------------------------------------------
--------------------------------------------------------------------------------------------------------
--------------------------------------------------------------------------------------------------------


Note: to make this last bar sound right check the inclination of the Bottleneck. (the degrees between (45ş))
Miguel Sobrevia 2008
Last update: 2008-10-20