'Flash's Theme Reprise' tab guide

Words and music by Brian May

|--------------------------------------------------------___----------------|
|------15b17___--b17__r15p13-15v___------15b17___---17b19rbr17p15-13-15v___-|
|-12----------------------------------12------------------------------------|
|---------------------------------------------------------------------------|
|---------------------------------------------------------------------------|
|------*---------------------*-----------*---------------------------*------|

|----------------------------------------------------------------------17v__\-|
|----15----17b19___-b19___r17p15-17___-----------17b19___-b19___r17p15--------|
|-12----12------------------------------14-15-14------------------------------|
|-----------------------------------------------------------------------------|
|-----------------------------------------------------------------------------|
|----------*---------------------*---------------*---------------------*------|

|------------10------------------------------------------------------|
|-----------------13-12-13--------------------------10--12--13--12---|
|-12b14v___----------------12-------------12b14v___------------------|
|--------------------------------14b12p10----------------------------|
|--------------------------------------------------------------------|
|-*---------------------*-----------------*---------------------*----|

|----------------------------___-----------------------|
|-15b17v___-15-13----15b17___rbr15---13---12-----------|
|----------------------------------------------14___---|
|------------------------------------------------------|
|------------------------------------------------------|
|--------------*-----*-------------------------*-------|


two solo bits
|-------------------------------|-*------------------*---------------*---|
|-----5-8p5-6p5-6p5-------------|-8b10---8-6-5---------------------------|
|-4-5---------------7-5-7-4-----|--------------7-5-----------------------|
|---------------------------5---|------------------7-6-5-3---------------|
|-------------------------------|--------------------------5-3-----------|
|-------*---------------*-------|------------------------------5-4-3-1---|

* : strong beat markers
Author: PD. july 2001
Last update: 03/21/2007