Jesus tab guide

note: .
intro part
  
E||------------------------------------|------------------------------------|
B||------------------------------------|------------------------------------|
G||--4--------4---------------4--------|--4--------4---------------4--------|
D||--4--------4--------4------4--------|--4--------4--------4------4--------|
A||--2--------2--------4------2--------|--2--------2--------4------2--------|
E||--------------------2---------------|--------------------2---------------|

Repeat the pattern


During Solo 
----------------------------------------|--------------------------------------|
----------------------------------------|--------------------------------------|
--4--------4--------2-------------------|--4--------4--------------------------|
--4--------4--------2-------------------|--4--------4--------------------------|
--2--------2--------0--------0h2--------|--2--------2--------5--4--2-----------|
-----------------------3--2-------------|-----------------------------5--3--2--|


Solo (1:37)

-----------------------------------|----------------------------------------|
-----------------------------------|-----------------------------10---------|
---------------7^7-6--4--3--4------|--------//7-----9^7-9-9--9b-------------|
-----------------------------------|----------------------------------------|
-----------------------------------|----------------------------------------|
-----------------------------------|----------------------------------------|
 
-------------------------------------|------------------------------------|
-------------------------------------|------------------------------------|
--9^-7-------------------------------|------------------7--6--4-----------|
------------9------7-----7--7h9------|--7h9------9---------------7--5--4--|
----------------------9--------------|------------------------------------|
-------------------------------------|------------------------------------|

             
--------------------------------------|-------------------|-------------------|
--------------------------------------|-------------------|-------------------|
--6/7-------7------7--6--4------------|-------------------|-------------------|
-----------------------------7--5--4--|-------------------|-------------------|
--------------------------------------|--7----------------|-------------------|
--------------------------------------|-------------------|-------------------|
PERSECHINI Bruno
Last update: 2013-01-10