Seven Seas Of Rhye tab guide

note: Piano arranged for guitar (practice it slowly then increase speed)
-----14-17----15-19----14-17----15-19----14-17----|
--15-------15-------15-------15-------15-------15-|
--------------------------------------------------|
--------------------------------------------------|
--------------------------------------------------|
--------------------------------------------------|


Guitar starts

--------------------------------------------------|
--------------------------------------------------|
--------------------------------------------------|
---7~~---7-7-7-7-7--------------------------------|
---5~~---5-5-5-5-5-----5--------------------------|
-----------------------3--------------------------|
PERSECHINI Bruno
Last update: 2013-01-10