Death On Two Legs (dedicated to ...) tab guide

note: Fingerstyle arrangement - sketch.

Intro I
|-------11----------|------|------|------|
|----------11----11-|------|------|------|
|----11-------11----|--0/--|--0/--|--0/--|
|-------------------|--/0--|--/0--|--/0--|
|-------------------|------|------|------|
|-11----------------|------|------|------|

|------9----------|------|------9--------|------|------9--------|------|
|--------11----11-|------|--------9----9-|------|--------9----9-|------|
|---11------11----|--0/--|---11-----11---|--0/--|---10-----10---|--0/--|
|-----------------|--/0--|---------------|--/0--|---------------|--/0--|
|-----------------|------|---------------|------|---------------|------|
|-9---------------|------|-9-------------|------|-9-------------|------|

|------8--------|------|-----8-------|------|-----7-------|------|
|--------9----9-|------|-------8---8-|------|-------8---7-|------|
|---10-----10---|--0/--|---9-----9---|--0/--|---9-----9---|--0/--|
|---------------|--/0--|-------------|--/0--|-------------|--/0--|
|---------------|------|-------------|------|-------------|------|
|-8-------------|------|-8-----------|------|-7-----------|------|

|-7-------7-----7-6------7-7-----7-10--------------------------------------------------------|
|-8-------8-----8-8------8-8-----8-12---------------------------<12>-<12>--------------------|
|-9-------9-----9-9------9-9-----9-12---------<12>-<12>---------------------------<5>-<5>----|
|----------------------------------0--------------------<7>-<7>-----------<5>-<5>------------|
|--------------------------------------------------------------------------------------------|
|-7-------7-----7-6------7-9-----7-----------------------------------------------------------|

Intro II
    * . . . * . . . * . . . * . . . * . . . * . . . * . . . * . . . 
|-------------------------------------------------------------------|
|---------------------3-3-----3-3-----3-3-----3-3-3-3---------------|
|---------------------4-4-----4-4-----4-4-----4-4-4-4---------------|
|-5-------5-------5-------5-------5-------5---------4---------------|
|---5-------4-------5-------4-------5-------4-------2-2-2-2-2-2-2-2-|
|-------------------------------------------------------------------|

Intro III
  *   .   .   .   *   .   .   .   *   .   .   .   *   .   .   .
|---------------------------2-2-2---------------------------------|
|-3------------------------------(3)--------------3---------------|
|-4-------4---4-3-----2-----------1-------------------------------|
|-4---------4-------4-------------4-----------0-4-5---0-4---------|
|-2---2---2---2---2---2---2---2---2---2-----2-----2---2---2---2---|
|-----------------------------------------------------------------|

  .   .   .   *   .   .   .   *   .   .   .   *   .   .   .   
|-------------------------------------------------------------|
|-------------3---------------3---------------3---5-3-----3---|
|-----2---4-----4-2-4-----------4-2-4-----------4-------4---4-|
|-4-----------4---------------4-------------------------------|
|-------------2---2---2-----2-2---2---2-----2-2---------------|
|-----------------------2-5-------------2-5-------------------|

Verse:
  *   .   .   .   *   .   .   .   *   .   .   .
|-------------------------------------------------|
|-3---------------3---------------3---5-3---------|
|---4-2-4-----------4-2-4-----------4-------------|
|-4---------------4---------------4---------------|
|-2-------------2-2-------------2-2---------------|
|-----------2-5-------------2-5-------------------|

  *   .   .   .   *   .   .   .   *   .   .   .   *   .   .   .
|-6-------5-------3-----------------0---0-------------------------|
|-3-------3-------3-----------3-3-2-------------------------------|
|-3-------3-------3---------------3-------------------------------|
|-----------------------------------------------------------------|
|-----------------------------------------------------------------|
|-3-------3-------3---------------2-------------------------------|

  *   .   .   .   *   .   .   .   *   .   .   .
|-----0---------------2-----------3-2---3-2-------|
|-3-3---3-1---3-3-3-3---3-1---3-3-3---3-----3-3-3-|
|-2---------------2---------------2---------------|
|-0---------------0---------------0---------------|
|-------------------------------------------------|
|-------------------------------------------------|

  *   .   .   .   *   .   .   .   *   .   .   .   *   .   .   .
|-6-------5-------3-----------------0---0-------------------------|
|-3-------3-------3-----------3-3-2-------------------------------|
|-3-------3-------3---------------3-------------------------------|
|-----------------------------------------------------------------|
|-----------------------------------------------------------------|
|-3-------3-------3---------------2-------------------------------|


Chorus:
  *   .   .   .   *   .   .   .   *   .   .   .   *   .   .   .
|-----3-2-----------------2-----0-0-------------------------------|
|-3-------------------------5-3-----------------------------------|
|-4-4---------4-3-----2-----------1---------------0---------------|
|-4---------4-------4-------------------------0-4-----0-4---------|
|-2-------------------------------2---------2---------------------|
|-----------------------------------------------------------------|

  *   .   .   .   *   .   .   .   *   .   .   .   *   .   .   .
|-----3-2-----------------2-----0-0-------------2-----------------|
|-3-------------------------5-3---2-------------------------------|
|-4-4---------4-3-----2-----------2-----------2-------------------|
|-4---------4-------4-----------------------4-----0---0---0---0---|
|-2---2---2---2---2---2---2---2---0---0---0-----------------------|
|-----------------------------------------------------------------|

  *   .   .   .   *   .   .   .   *   .   .   .   *   .   .   .
|-2---------------2-2-------------3---2-----------3---2-----------|
|-2---5-----------2---5-----------3---------------3-----3---------|
|-3---3-----------3---------------4---------------4---------4-----|
|-------------4-4-------------4-4---------------------------------|
|---------------------------------2---2-----------2-----------2-1-|
|-2---2---2---2---2---2---2---2---------2-3-2-1-2-----------------|

  *   .   .   .   *   .   .   .   *   .   .   .   *   .   .   .
|-----------------2-0-0---------------2---------------2-----------|
|-2---------------2---------------3---------------3---------------|
|-2---------------2-----------2-2-2-----------2-2-2---------------|
|---------------------------------0---------------0---------------|
|-0-------------0---------------0---------------0-----------------|
|-----------2-3-------------2-3-------------2-3-------------------|

...

Solo
  *   .   .   .   *   .   .   .   *   .   .   .   *   .   .   .
|-----------------------------------------------------------------|
|-----------------------------------------------------------------|
|-------------2-------------------------------2-------------------|
|-0---------4-------0-2---------0-0---------4-------0-2---------0-|
|---------------4-------2---0-------------------4-------2---0-----|
|-----------------------------------------------------------------|

  *   .   .   .   *   .   .   .   *   .   .   .   *   .   .   .
|-----------------------------------------------------------------|
|-----------------------------------------------------------------|
|-------------2---------------------------------------------------|
|-0---------4-------0-2-------0-----------------------------------|
|---------------4-------2---4---0---2-4-----0-2-------------------|
|---------------------------------------3-------0-2-220-2---------|


PD. 2005
Last update: 2007-03-21