Love Of My Life bass guide

Words and music by Freddie Mercury

note:
Verse:
  *   .   .   .   *   .   .   .   *   .    .   .   *   .   .   .
|---------------------------------------19---------------------12--|
|-10--------------19-----------------------------------------------|
|---------------------------------17---------------10--------------|
|------------------------------------------------------------------|


  *   .   .   .   *   .   .   .     *   .    .   .   *   .   .   .
|-----------------------------17-------------14------15--------------|
|-10--------------15-------------15-12----12-----------------15------|
|--------------------------------------------------------------------|
|--------------------------------------------------------------------|

 3/4
  *   .   .   *   .   .   .   *   .   *   .   .   .   *   .   .   .   *   .   .   .
|-15--14--19----------17----------------------------------------------12--14--16--19--|
|-------------17--------------15------------------------------------------------------|
|-------------------------------------------------------------------------------------|
|-------------------------------------------------------------------------------------|



2nd Verse:
  *   .   .   .   *     .     .   .   *   .    .   .   *   .   .     .
|-----------------------17-14---------------19---------12--14--16-19-19--|
|-10-----------------14--------------------------------------------------|
|-----------------12------------------17---------------------------------|
|------------------------------------------------------------------------|

  *   .   .   .    *    .   .   .     *   .    .     .   *    .     .   .
|---------------17--------------17-------------------14---------------------|
|-10---------------15--------------15-12----------14----------15-15---------|
|----------------------------------------------12----------13---------------|
|---------------------------------------------------------------------------|

 3/4
  *   .   .   *   .      .   .   *   .   *   .   .   .   *   .   .    .
|-15--14--19------191719-17-------------------------------------------------|
|-------------17-----------------15--------------------------------12-13-15-|
|---------------------------------------------------------------------------|
|---------------------------------------------------------------------------|

  *   .   .   .   *   .    *   .   .   .
|-15----------15--14--12--10---------------|
|------------------------------------------|
|------------------------------------------|
|------------------------------------------|


Bridge:
  *   .   .   .   *    .     .   .   *     .     .   .   *   .   .   .
|-------------------------14---------------19-15---------------------14--|
|-12-------------------14---------------15---------------15--------------|
|-------------------12---------------13----------------------------------|
|(10)--------------------------------------------------------------------|

  *     .     .   .   *     .     .       .     *   .    .   .   *   .   .   .
|-------19------------------17-17---17\16/17\--------------------------------------|
|----19----19------------14---------------------16---------------17------------17\-|
|-17------------------12-----------------------------------------------------------|
|----------------------------------------------------------------------------------|

  *   .   .   .       *   .   .   .   *   .    .   .   *   .   .   .
|-------------171514---------------------------------------------------|
|-10--12--14--------1715-----------------------------------------------|
|----------------------------------------------------------------------|
|----------------------------------------------------------------------|

  *   .   .   .   *   .   .   .   *   .   .   .   *   .   .   .
|---------------------------------17------------------------------|
|--------------------------------(14)-----------------------------|
|-10--------------8-----------------------------------------------|
|-----------------------------------------------------------------|


verse-ending reprise:
  *   .   .     .    *    .     .    .    *   .    .   *   .   .   .
|-----------------14---------15----------------------------------------|
|-12-----------14---------15------15-15------------12----------10------|
|-----------12---------13-----------------13--12-------10--------------|
|----------------------------------------------------------------------|

  *   .   .   .    *   .   .   .   *   .        .   .   *   .   .   .   *...
|----------------------------------------19p17h19\----------------------------|
|-8-------------10/12---------------------------------------------------10----|
|---------------------------------12------------------------------------------|
|-------------------------------------------------------------5-6-------------|

(could not be transcribed too accurately)
PD. nov 2003
Last update: 2007-03-21